Kunci Gitar dan Piano | Chord J Rocks Ceria [Tab]

Berikut ini adalah CHORD J ROCKS CERIA [TAB], Lengkap lirik dengan Kunci gitar yang standart. Jadi jangan takut fals ya, kunci gitar atau chordnya mudah banget kok. Kamu Juga bisa mengikuti lirik lagunya dan di iringi dengan instrument lain. Kunci gitar yang pas jadi bisa kamu terapin ke Chord Piano.

Berikut langsung saja saya sajikan CHORD J ROCKS CERIA [TAB]. Ingat...kuncinya bisa kamu terapkan ke Gitar maupun Piano.

Swing jazz style
E-----------------------------------------|
B-----------------------------------------|
G----9s10--9--7--9s10--10--10s12--7--7s9--|
D-----------------------------------------|
A-----------------------------------------|
E-----------------------------------------|

E-----------------------------------------------------------------------------------------|
B---13--12--11--10-------------------------------------------------------------10--10s12--|
G--------------------12--10--9h10p9-------------------------------------------------------|
D--------------------------------------12--10--9h10p9-------------9--10--12---------------|
A--------------------------------------------------------12--10--12-----------------------|
E-----------------------------------------------------------------------------------------|

E---------------------------------------------|
B--12--13--15--17--17b1/4--15--13--15--15b17--|
G---------------------------------------------|
D---------------------------------------------|
A---------------------------------------------|
E---------------------------------------------|

E---------------------------------------------------------------|
B--12--10--9h10p9-----------------------------------------------|
G--------------------11--9--8--9--8-----------------9--8--9--8--|
D-------------------------------------9--------------9----------|
A-------------------------------------9--7--6--7s9--------------|
E---------------------------------------------------------------|

E---------------------------------6--7--8|--9--10--11--12|11-12-11------------------|
B---------------------6--7--8--9-------------------------------------12-------------|
G--6--8--5--6--8--9---------------------------------------------------11---9-8-9-8--|
D-----------------------------------------------------------------------------------|
A-----------------------------------------------------------------------------------|
E-----------------------------------------------------------------------------------|


E------------------------------------------12--14b1/4--12--14--12--------12---------------|
B----------------------------------12--14-----------------------------14--12--14--12--14--|
G—11b13--9--11-----9--11s13---------------------------------------------------------------|
D------------------9h11-------------------------------------------------------------------|
A-----------------------------------------------------------------------------------------|
E-----------------------------------------------------------------------------------------|

E--14b16--14b16--14b16--14b16--14b16--14--12-------------------------------|
B--------------------------------------------------------------------------|
G--------------------------------------------------------------------------|
D--------------------------------------------------------------------------|
A--------------------------------------------------------------------------|
E--------------------------------------------------------------------------|

Kunci Gitar dan Piano | CHORD J ROCKS CERIA [TAB]
Facebook Comments