Kunci Gitar dan Piano | Chord Maliq & D'Essentials Terdiam [Tab]

Berikut ini adalah CHORD MALIQ & D'ESSENTIALS TERDIAM [TAB], Lengkap lirik dengan Kunci gitar yang standart. Jadi jangan takut fals ya, kunci gitar atau chordnya mudah banget kok. Kamu Juga bisa mengikuti lirik lagunya dan di iringi dengan instrument lain. Kunci gitar yang pas jadi bisa kamu terapin ke Chord Piano.

Berikut langsung saja saya sajikan CHORD MALIQ & D'ESSENTIALS TERDIAM [TAB]. Ingat...kuncinya bisa kamu terapkan ke Gitar maupun Piano.

(Verse:)
e|---------5----------8---7-----3--
B|------5--6--6--5----10--8--6--5--
G|------5--7--7--5----9---7--7--4--
D|------5--7--7--5----10--9--7--5--
A|--/7-----5----------8---7-----3--
E|------5-----6--5-----------6-----
           Mataku..   saat..

e|-----5----------8---7--6--5-----
B|--5--6--6--5----10--8--8--6--8--
G|--5--7--7--5----9---7--7--5--9--
D|--5--7--7--5----10--9--8--7--9--
A|-----5----------8---7--6--5-----
E|--5-----6--5--------------------
       ingin..   ku terdiam, tak kuLakukan

e|------5-------------8---7-----3--
B|---5--6--6--5-------10--8--6--5--
G|---5--7--7--5-------9---7--7--4--
D|---5--7--7--5-------10--9--7--5--
A|------5-------------8---7-----3--
E|---5-----6--5--------------6-----
        Mungkinkah..   tau..
e|-----5----------8---7--6--5-----
B|--5--6--6--5----10--8--8--6--8--
G|--5--7--7--5----9---7--7--5--9--
D|--5--7--7--5----10--9--8--7--9--
A|-----5----------8---7--6--5-----
E|--5-----6--5--------------------
       sungguh.. ku terdiam, tak kuLakukan.. oo

(Reff:)
e|--------7-------5--4--------
B|--5--5--8--7----7--5--7--8--
G|--6--4--7--7----6--4--7--9--
D|--7--6--9--7----7--6--7--9--
A|--7--4--7-------5--4--------
E|--5--------7----------7-----
       apakah..  getaranku..
e|--------7-------5--4--------
B|--5--5--8--7----7--5--7--8--
G|--6--4--7--7----6--4--7--9--
D|--7--6--9--7----7--6--7--9--
A|--7--4--7-------5--4--------
E|--5--------7----------7-----
      ku hanya..    menunggu..

(Verse:)
oo.. (ku menunggu tuk tau namamu… u..u..u..u)
oo.. (namun ku terdiam tak kulakukan)


Reff 2x

bridge :
    F  G  E7  Am7 
e|--1--3----------
B|--1--3--3---1---
G|--2--4--1-------
D|--3--5--2---2---
A|--3--5--2-------
E|--1--3----------
mataku terus tertuju padamu
ingin kusapa dirimu namun ku
masih malu tuk hampiri dirimu
    F  G  E7   
e|--1--3----------
B|--1--3--3---8---
G|--2--4--1---9---
D|--3--5--2---9---
A|--3--5--2-------
E|--1--3----------
ku terdiam aku menunggu... 
aku terpaku

Semoga dapat dimengerti...
Terima kasih..

Kunci Gitar dan Piano | CHORD MALIQ & D'ESSENTIALS TERDIAM [TAB]
Facebook Comments